  0
SECTION
  2
HEADER
  9
$ACADVER
  1
AC1015
  9
$ACADMAINTVER
 70
     6
  9
$DWGCODEPAGE
  3
ANSI_1254
  9
$INSBASE
 10
0.0
 20
0.0
 30
0.0
  9
$EXTMIN
 10
0.0
 20
0.0
 30
0.0
  9
$EXTMAX
 10
279.4
 20
215.9
 30
0.0
  9
$LIMMIN
 10
0.0
 20
0.0
  9
$LIMMAX
 10
279.4
 20
215.9
  9
$ORTHOMODE
 70
     0
  9
$REGENMODE
 70
     1
  9
$FILLMODE
 70
     1
  9
$QTEXTMODE
 70
     0
  9
$MIRRTEXT
 70
     1
  9
$LTSCALE
 40
1.0
  9
$ATTMODE
 70
     1
  9
$TEXTSIZE
 40
3.5
  9
$TRACEWID
 40
1.0
  9
$TEXTSTYLE
  7
Standard
  9
$CLAYER
  8
0
  9
$CELTYPE
  6
ByLayer
  9
$CECOLOR
 62
   256
  9
$CELTSCALE
 40
1.0
  9
$DISPSILH
 70
     0
  9
$DIMSCALE
 40
1.0
  9
$DIMASZ
 40
3.5
  9
$DIMEXO
 40
1.0
  9
$DIMDLI
 40
3.75
  9
$DIMRND
 40
0.0
  9
$DIMDLE
 40
0.0
  9
$DIMEXE
 40
1.0
  9
$DIMTP
 40
0.0
  9
$DIMTM
 40
0.0
  9
$DIMTXT
 40
3.5
  9
$DIMCEN
 40
2.5
  9
$DIMTSZ
 40
0.0
  9
$DIMTOL
 70
     0
  9
$DIMLIM
 70
     0
  9
$DIMTIH
 70
     1
  9
$DIMTOH
 70
     1
  9
$DIMSE1
 70
     0
  9
$DIMSE2
 70
     0
  9
$DIMTAD
 70
     1
  9
$DIMZIN
 70
     0
  9
$DIMBLK
  1

  9
$DIMASO
 70
     1
  9
$DIMSHO
 70
     1
  9
$DIMPOST
  1

  9
$DIMAPOST
  1

  9
$DIMALT
 70
     0
  9
$DIMALTD
 70
     3
  9
$DIMALTF
 40
0.0393700787
  9
$DIMLFAC
 40
1.0
  9
$DIMTOFL
 70
     1
  9
$DIMTVP
 40
0.0
  9
$DIMTIX
 70
     0
  9
$DIMSOXD
 70
     0
  9
$DIMSAH
 70
     0
  9
$DIMBLK1
  1

  9
$DIMBLK2
  1

  9
$DIMSTYLE
  2
ISO-25
  9
$DIMCLRD
 70
     0
  9
$DIMCLRE
 70
     0
  9
$DIMCLRT
 70
     0
  9
$DIMTFAC
 40
1.0
  9
$DIMGAP
 40
1.524
  9
$DIMJUST
 70
     0
  9
$DIMSD1
 70
     0
  9
$DIMSD2
 70
     0
  9
$DIMTOLJ
 70
     0
  9
$DIMTZIN
 70
     0
  9
$DIMALTZ
 70
     0
  9
$DIMALTTZ
 70
     0
  9
$DIMUPT
 70
     0
  9
$DIMDEC
 70
     2
  9
$DIMTDEC
 70
     2
  9
$DIMALTU
 70
     2
  9
$DIMALTTD
 70
     3
  9
$DIMTXSTY
  7
Standard
  9
$DIMAUNIT
 70
     0
  9
$DIMADEC
 70
     2
  9
$DIMALTRND
 40
0.0
  9
$DIMAZIN
 70
     0
  9
$DIMDSEP
 70
    44
  9
$DIMATFIT
 70
     3
  9
$DIMFRAC
 70
     0
  9
$DIMLDRBLK
  1

  9
$DIMLUNIT
 70
     2
  9
$DIMLWD
 70
    -2
  9
$DIMLWE
 70
    -2
  9
$DIMTMOVE
 70
     0
  9
$LUNITS
 70
     2
  9
$LUPREC
 70
     2
  9
$SKETCHINC
 40
1.0
  9
$FILLETRAD
 40
10.0
  9
$AUNITS
 70
     0
  9
$AUPREC
 70
     2
  9
$MENU
  1
.
  9
$ELEVATION
 40
0.0
  9
$PELEVATION
 40
0.0
  9
$THICKNESS
 40
0.0
  9
$LIMCHECK
 70
     0
  9
$CHAMFERA
 40
0.0
  9
$CHAMFERB
 40
0.0
  9
$CHAMFERC
 40
0.0
  9
$CHAMFERD
 40
0.0
  9
$SKPOLY
 70
     0
  9
$TDCREATE
 40
2458985.682228924
  9
$TDUCREATE
 40
2458985.557228924
  9
$TDUPDATE
 40
2458985.682229213
  9
$TDUUPDATE
 40
2458985.557229213
  9
$TDINDWG
 40
0.0000000116
  9
$TDUSRTIMER
 40
0.0000000116
  9
$USRTIMER
 70
     1
  9
$ANGBASE
 50
0.0
  9
$ANGDIR
 70
     0
  9
$PDMODE
 70
     0
  9
$PDSIZE
 40
-1.0
  9
$PLINEWID
 40
0.0
  9
$SPLFRAME
 70
     0
  9
$SPLINETYPE
 70
     6
  9
$SPLINESEGS
 70
     8
  9
$HANDSEED
  5
CB
  9
$SURFTAB1
 70
     6
  9
$SURFTAB2
 70
     6
  9
$SURFTYPE
 70
     6
  9
$SURFU
 70
     6
  9
$SURFV
 70
     6
  9
$UCSBASE
  2

  9
$UCSNAME
  2

  9
$UCSORG
 10
0.0
 20
0.0
 30
0.0
  9
$UCSXDIR
 10
1.0
 20
0.0
 30
0.0
  9
$UCSYDIR
 10
0.0
 20
1.0
 30
0.0
  9
$UCSORTHOREF
  2

  9
$UCSORTHOVIEW
 70
     0
  9
$UCSORGTOP
 10
0.0
 20
0.0
 30
0.0
  9
$UCSORGBOTTOM
 10
0.0
 20
0.0
 30
0.0
  9
$UCSORGLEFT
 10
0.0
 20
0.0
 30
0.0
  9
$UCSORGRIGHT
 10
0.0
 20
0.0
 30
0.0
  9
$UCSORGFRONT
 10
0.0
 20
0.0
 30
0.0
  9
$UCSORGBACK
 10
0.0
 20
0.0
 30
0.0
  9
$PUCSBASE
  2

  9
$PUCSNAME
  2

  9
$PUCSORG
 10
0.0
 20
0.0
 30
0.0
  9
$PUCSXDIR
 10
1.0
 20
0.0
 30
0.0
  9
$PUCSYDIR
 10
0.0
 20
1.0
 30
0.0
  9
$PUCSORTHOREF
  2

  9
$PUCSORTHOVIEW
 70
     0
  9
$PUCSORGTOP
 10
0.0
 20
0.0
 30
0.0
  9
$PUCSORGBOTTOM
 10
0.0
 20
0.0
 30
0.0
  9
$PUCSORGLEFT
 10
0.0
 20
0.0
 30
0.0
  9
$PUCSORGRIGHT
 10
0.0
 20
0.0
 30
0.0
  9
$PUCSORGFRONT
 10
0.0
 20
0.0
 30
0.0
  9
$PUCSORGBACK
 10
0.0
 20
0.0
 30
0.0
  9
$USERI1
 70
     0
  9
$USERI2
 70
     0
  9
$USERI3
 70
     0
  9
$USERI4
 70
     0
  9
$USERI5
 70
     0
  9
$USERR1
 40
0.0
  9
$USERR2
 40
0.0
  9
$USERR3
 40
0.0
  9
$USERR4
 40
0.0
  9
$USERR5
 40
0.0
  9
$WORLDVIEW
 70
     1
  9
$SHADEDGE
 70
     3
  9
$SHADEDIF
 70
    70
  9
$TILEMODE
 70
     1
  9
$MAXACTVP
 70
    64
  9
$PINSBASE
 10
0.0
 20
0.0
 30
0.0
  9
$PLIMCHECK
 70
     0
  9
$PEXTMIN
 10
1.0000000000E+20
 20
1.0000000000E+20
 30
1.0000000000E+20
  9
$PEXTMAX
 10
-1.0000000000E+20
 20
-1.0000000000E+20
 30
-1.0000000000E+20
  9
$PLIMMIN
 10
0.0
 20
0.0
  9
$PLIMMAX
 10
420.0
 20
297.0
  9
$UNITMODE
 70
     0
  9
$VISRETAIN
 70
     1
  9
$PLINEGEN
 70
     0
  9
$PSLTSCALE
 70
     1
  9
$TREEDEPTH
 70
  3020
  9
$CMLSTYLE
  2
Standard
  9
$CMLJUST
 70
     0
  9
$CMLSCALE
 40
20.0
  9
$PROXYGRAPHICS
 70
     1
  9
$MEASUREMENT
 70
     1
  9
$CELWEIGHT
370
    -1
  9
$ENDCAPS
280
     0
  9
$JOINSTYLE
280
     0
  9
$LWDISPLAY
290
     1
  9
$INSUNITS
 70
     4
  9
$HYPERLINKBASE
  1

  9
$STYLESHEET
  1

  9
$XEDIT
290
     1
  9
$CEPSNTYPE
380
     0
  9
$PSTYLEMODE
290
     1
  9
$FINGERPRINTGUID
  2
{79759145-f152-432d-a9aa-0f5c57981278}
  9
$VERSIONGUID
  2
{FAEB1C32-E019-11D5-929B-00C0DF256EC4}
  9
$EXTNAMES
290
     1
  9
$PSVPSCALE
 40
0.0
  9
$OLESTARTUP
290
     0
  0
ENDSEC
  0
SECTION
  2
CLASSES
  0
CLASS
  1
ACDBDICTIONARYWDFLT
  2
AcDbDictionaryWithDefault
  3
ObjectDBX Classes
 90
        0
280
     0
281
     0
  0
CLASS
  1
VISUALSTYLE
  2
AcDbVisualStyle
  3
ObjectDBX Classes
 90
     4095
280
     0
281
     0
  0
CLASS
  1
MATERIAL
  2
AcDbMaterial
  3
ObjectDBX Classes
 90
     1153
280
     0
281
     0
  0
CLASS
  1
SCALE
  2
AcDbScale
  3
ObjectDBX Classes
 90
     1153
280
     0
281
     0
  0
CLASS
  1
TABLESTYLE
  2
AcDbTableStyle
  3
ObjectDBX Classes
 90
     4095
280
     0
281
     0
  0
CLASS
  1
MLEADERSTYLE
  2
AcDbMLeaderStyle
  3
ACDB_MLEADERSTYLE_CLASS
 90
     4095
280
     0
281
     0
  0
CLASS
  1
SUN
  2
AcDbSun
  3
SCENEOE
 90
     1153
280
     0
281
     0
  0
CLASS
  1
ACDBPLACEHOLDER
  2
AcDbPlaceHolder
  3
ObjectDBX Classes
 90
        0
280
     0
281
     0
  0
CLASS
  1
LAYOUT
  2
AcDbLayout
  3
ObjectDBX Classes
 90
        0
280
     0
281
     0
  0
ENDSEC
  0
SECTION
  2
TABLES
  0
TABLE
  2
VPORT
  5
8
330
0
100
AcDbSymbolTable
 70
     1
  0
VPORT
  5
29
330
8
100
AcDbSymbolTableRecord
100
AcDbViewportTableRecord
  2
*Active
 70
     0
 10
0.0
 20
0.0
 11
1.0
 21
1.0
 12
139.7
 22
107.95
 13
0.0
 23
0.0
 14
10.0
 24
10.0
 15
10.0
 25
10.0
 16
0.0
 26
0.0
 36
1.0
 17
0.0
 27
0.0
 37
0.0
 40
215.9
 41
1.2941176471
 42
50.0
 43
0.0
 44
0.0
 50
0.0
 51
0.0
 71
     0
 72
  2000
 73
     1
 74
     3
 75
     0
 76
     0
 77
     0
 78
     0
281
     0
 65
     1
110
0.0
120
0.0
130
0.0
111
1.0
121
0.0
131
0.0
112
0.0
122
1.0
132
0.0
 79
     0
146
0.0
  0
ENDTAB
  0
TABLE
  2
LTYPE
  5
5
330
0
100
AcDbSymbolTable
 70
     6
  0
LTYPE
  5
14
330
5
100
AcDbSymbolTableRecord
100
AcDbLinetypeTableRecord
  2
ByBlock
 70
     0
  3

 72
    65
 73
     0
 40
0.0
  0
LTYPE
  5
15
330
5
100
AcDbSymbolTableRecord
100
AcDbLinetypeTableRecord
  2
ByLayer
 70
     0
  3

 72
    65
 73
     0
 40
0.0
  0
LTYPE
  5
16
330
5
100
AcDbSymbolTableRecord
100
AcDbLinetypeTableRecord
  2
Continuous
 70
     0
  3
Solid line
 72
    65
 73
     0
 40
0.0
  0
LTYPE
  5
6E
330
5
100
AcDbSymbolTableRecord
100
AcDbLinetypeTableRecord
  2
HIDDEN
 70
     0
  3
Hidden __ __ __ __ __ __ __ __ __ __ __ __ __ __
 72
    65
 73
     2
 40
1.905
 49
1.27
 74
     0
 49
-0.635
 74
     0
  0
LTYPE
  5
6F
330
5
100
AcDbSymbolTableRecord
100
AcDbLinetypeTableRecord
  2
PHANTOM
 70
     0
  3
Phantom ______  __  __  ______  __  __  ______
 72
    65
 73
     6
 40
12.7
 49
6.35
 74
     0
 49
-1.27
 74
     0
 49
1.27
 74
     0
 49
-1.27
 74
     0
 49
1.27
 74
     0
 49
-1.27
 74
     0
  0
LTYPE
  5
70
330
5
100
AcDbSymbolTableRecord
100
AcDbLinetypeTableRecord
  2
CENTER
 70
     0
  3
Center ____ _ ____ _ ____ _ ____ _ ____ _ ____
 72
    65
 73
     4
 40
10.16
 49
6.35
 74
     0
 49
-1.27
 74
     0
 49
1.27
 74
     0
 49
-1.27
 74
     0
  0
LTYPE
  5
71
330
5
100
AcDbSymbolTableRecord
100
AcDbLinetypeTableRecord
  2
CENTERX2
 70
     0
  3
Center (2x) ________  __  ________  __  _____
 72
    65
 73
     4
 40
20.32
 49
12.7
 74
     0
 49
-2.54
 74
     0
 49
2.54
 74
     0
 49
-2.54
 74
     0
  0
LTYPE
  5
72
330
5
100
AcDbSymbolTableRecord
100
AcDbLinetypeTableRecord
  2
DOT2
 70
     0
  3
Dot (.5x) ........................................
 72
    65
 73
     2
 40
0.635
 49
0.0
 74
     0
 49
-0.635
 74
     0
  0
ENDTAB
  0
TABLE
  2
LAYER
  5
2
330
0
100
AcDbSymbolTable
 70
    17
  0
LAYER
  5
10
330
2
100
AcDbSymbolTableRecord
100
AcDbLayerTableRecord
  2
0
 70
     0
 62
     7
  6
Continuous
370
    -3
390
F
  0
LAYER
  5
73
330
2
100
AcDbSymbolTableRecord
100
AcDbLayerTableRecord
  2
FORMAT
 70
     0
 62
     7
  6
Continuous
370
    -3
390
F
  0
LAYER
  5
74
330
2
100
AcDbSymbolTableRecord
100
AcDbLayerTableRecord
  2
YARDIMCI_GEOMETRI
 70
     0
 62
    -6
  6
Continuous
290
     0
370
    -3
390
F
  0
LAYER
  5
75
330
2
100
AcDbSymbolTableRecord
100
AcDbLayerTableRecord
  2
SAYFA_CERCEVESI
 70
     0
 62
     7
  6
Continuous
370
    25
390
F
  0
LAYER
  5
76
330
2
100
AcDbSymbolTableRecord
100
AcDbLayerTableRecord
  2
ANTET
 70
     0
 62
     7
  6
Continuous
370
    -3
390
F
  0
LAYER
  5
77
330
2
100
AcDbSymbolTableRecord
100
AcDbLayerTableRecord
  2
OLCU
 70
     0
 62
   150
  6
Continuous
370
    -3
390
F
  0
LAYER
  5
78
330
2
100
AcDbSymbolTableRecord
100
AcDbLayerTableRecord
  2
METIN
 70
     0
 62
    96
  6
Continuous
370
    -3
390
F
  0
LAYER
  5
79
330
2
100
AcDbSymbolTableRecord
100
AcDbLayerTableRecord
  2
BALON
 70
     0
 62
     5
  6
Continuous
370
    -3
390
F
  0
LAYER
  5
7A
330
2
100
AcDbSymbolTableRecord
100
AcDbLayerTableRecord
  2
VURGU
 70
     0
 62
     7
  6
Continuous
370
    -3
390
F
  0
LAYER
  5
7B
330
2
100
AcDbSymbolTableRecord
100
AcDbLayerTableRecord
  2
SILIK
 70
     0
 62
     7
  6
Continuous
370
    -3
390
F
  0
LAYER
  5
7C
330
2
100
AcDbSymbolTableRecord
100
AcDbLayerTableRecord
  2
MODEL
 70
     0
 62
     7
  6
Continuous
370
    -3
390
F
  0
LAYER
  5
7D
330
2
100
AcDbSymbolTableRecord
100
AcDbLayerTableRecord
  2
DETAYLANDıRMA
 70
     0
 62
   190
  6
Continuous
370
    -3
390
F
  0
LAYER
  5
7E
330
2
100
AcDbSymbolTableRecord
100
AcDbLayerTableRecord
  2
TOLERANS
 70
     0
 62
   230
  6
Continuous
370
    -3
390
F
  0
LAYER
  5
7F
330
2
100
AcDbSymbolTableRecord
100
AcDbLayerTableRecord
  2
MERKEZ_CIZGILERI
 70
     0
 62
    30
  6
Continuous
370
    -3
390
F
  0
LAYER
  5
80
330
2
100
AcDbSymbolTableRecord
100
AcDbLayerTableRecord
  2
KESIT-DETAY_CIZGILERI
 70
     0
 62
     7
  6
Continuous
370
    -3
390
F
  0
LAYER
  5
81
330
2
100
AcDbSymbolTableRecord
100
AcDbLayerTableRecord
  2
\U+041E\U+0421\U+0415\U+0412\U+042B\U+0415
 70
     0
 62
     7
  6
Continuous
370
    -3
390
F
  0
LAYER
  5
82
330
2
100
AcDbSymbolTableRecord
100
AcDbLayerTableRecord
  2
\U+0412\U+041E\U+0414\U+042F\U+041D\U+042B\U+0415_\U+0417\U+041D\U+0410\U+041A\U+0418
 70
     0
 62
    11
  6
Continuous
370
    -3
390
F
  0
ENDTAB
  0
TABLE
  2
STYLE
  5
3
330
0
100
AcDbSymbolTable
 70
     1
  0
STYLE
  5
11
330
3
100
AcDbSymbolTableRecord
100
AcDbTextStyleTableRecord
  2
Standard
 70
     0
 40
0.0
 41
1.0
 50
0.0
 71
     0
 42
3.5
  3
txt
  4

  0
ENDTAB
  0
TABLE
  2
VIEW
  5
6
330
0
100
AcDbSymbolTable
 70
     0
  0
ENDTAB
  0
TABLE
  2
UCS
  5
7
330
0
100
AcDbSymbolTable
 70
     0
  0
ENDTAB
  0
TABLE
  2
APPID
  5
9
330
0
100
AcDbSymbolTable
 70
     1
  0
APPID
  5
12
330
9
100
AcDbSymbolTableRecord
100
AcDbRegAppTableRecord
  2
ACAD
 70
     0
  0
ENDTAB
  0
TABLE
  2
DIMSTYLE
  5
A
330
0
100
AcDbSymbolTable
 70
     1
100
AcDbDimStyleTable
  0
DIMSTYLE
105
27
330
A
100
AcDbSymbolTableRecord
100
AcDbDimStyleTableRecord
  2
ISO-25
 70
     0
 41
2.5
 42
0.625
 43
3.75
 44
1.25
 73
     0
 74
     0
 77
     1
 78
     8
140
2.5
141
2.5
143
0.0393700787
147
0.625
171
     3
172
     1
178
     0
271
     2
272
     2
274
     3
278
    44
283
     0
284
     8
340
11
  0
ENDTAB
  0
TABLE
  2
BLOCK_RECORD
  5
1
330
0
100
AcDbSymbolTable
 70
     3
  0
BLOCK_RECORD
  5
1F
330
1
100
AcDbSymbolTableRecord
100
AcDbBlockTableRecord
  2
*Model_Space
340
22
  0
BLOCK_RECORD
  5
1B
330
1
100
AcDbSymbolTableRecord
100
AcDbBlockTableRecord
  2
*Paper_Space
340
1E
  0
BLOCK_RECORD
  5
23
330
1
100
AcDbSymbolTableRecord
100
AcDbBlockTableRecord
  2
*Paper_Space0
340
26
  0
BLOCK_RECORD
  5
88
330
1
100
AcDbSymbolTableRecord
100
AcDbBlockTableRecord
  2
SW_CENTERMARKSYMBOL_0
340
0
102
{BLKREFS
331
93
102
}
  0
BLOCK_RECORD
  5
B2
330
1
100
AcDbSymbolTableRecord
100
AcDbBlockTableRecord
  2
SW_CENTERMARKSYMBOL_1
340
0
102
{BLKREFS
331
BD
102
}
  0
ENDTAB
  0
ENDSEC
  0
SECTION
  2
BLOCKS
  0
BLOCK
  5
20
330
1F
100
AcDbEntity
  8
0
100
AcDbBlockBegin
  2
*Model_Space
 70
     0
 10
0.0
 20
0.0
 30
0.0
  3
*Model_Space
  1

  0
ENDBLK
  5
21
330
1F
100
AcDbEntity
  8
0
100
AcDbBlockEnd
  0
BLOCK
  5
1C
330
1B
100
AcDbEntity
 67
     1
  8
0
100
AcDbBlockBegin
  2
*Paper_Space
 70
     0
 10
0.0
 20
0.0
 30
0.0
  3
*Paper_Space
  1

  0
ENDBLK
  5
1D
330
1B
100
AcDbEntity
 67
     1
  8
0
100
AcDbBlockEnd
  0
BLOCK
  5
24
330
23
100
AcDbEntity
  8
0
100
AcDbBlockBegin
  2
*Paper_Space0
 70
     0
 10
0.0
 20
0.0
 30
0.0
  3
*Paper_Space0
  1

  0
ENDBLK
  5
25
330
23
100
AcDbEntity
  8
0
100
AcDbBlockEnd
  0
BLOCK
  5
89
330
88
100
AcDbEntity
  8
0
100
AcDbBlockBegin
  2
SW_CENTERMARKSYMBOL_0
 70
     0
 10
0.0
 20
0.0
 30
0.0
  3
SW_CENTERMARKSYMBOL_0
  1

  0
LINE
  5
8B
330
88
100
AcDbEntity
  8
FORMAT
 62
     0
100
AcDbLine
 10
0.0
 20
0.0
 30
0.0
 11
0.0
 21
2.5
 31
0.0
  0
LINE
  5
8C
330
88
100
AcDbEntity
  8
FORMAT
 62
     0
100
AcDbLine
 10
0.0
 20
0.0
 30
0.0
 11
-2.5
 21
0.0
 31
0.0
  0
LINE
  5
8D
330
88
100
AcDbEntity
  8
FORMAT
 62
     0
100
AcDbLine
 10
0.0
 20
0.0
 30
0.0
 11
0.0
 21
-2.5
 31
0.0
  0
LINE
  5
8E
330
88
100
AcDbEntity
  8
FORMAT
 62
     0
100
AcDbLine
 10
0.0
 20
0.0
 30
0.0
 11
2.5
 21
0.0
 31
0.0
  0
LINE
  5
8F
330
88
100
AcDbEntity
  8
FORMAT
 62
     0
100
AcDbLine
 10
0.0
 20
5.0
 30
0.0
 11
0.0
 21
47.5
 31
0.0
  0
LINE
  5
90
330
88
100
AcDbEntity
  8
FORMAT
 62
     0
100
AcDbLine
 10
-5.0
 20
0.0
 30
0.0
 11
-47.5
 21
0.0
 31
0.0
  0
LINE
  5
91
330
88
100
AcDbEntity
  8
FORMAT
 62
     0
100
AcDbLine
 10
0.0
 20
-5.0
 30
0.0
 11
0.0
 21
-47.5
 31
0.0
  0
LINE
  5
92
330
88
100
AcDbEntity
  8
FORMAT
 62
     0
100
AcDbLine
 10
5.0
 20
0.0
 30
0.0
 11
47.5
 21
0.0
 31
0.0
  0
ENDBLK
  5
8A
330
88
100
AcDbEntity
  8
0
100
AcDbBlockEnd
  0
BLOCK
  5
B3
330
B2
100
AcDbEntity
  8
0
100
AcDbBlockBegin
  2
SW_CENTERMARKSYMBOL_1
 70
     0
 10
0.0
 20
0.0
 30
0.0
  3
SW_CENTERMARKSYMBOL_1
  1

  0
LINE
  5
B5
330
B2
100
AcDbEntity
  8
FORMAT
 62
     0
100
AcDbLine
 10
0.0
 20
0.0
 30
0.0
 11
0.0
 21
2.5
 31
0.0
  0
LINE
  5
B6
330
B2
100
AcDbEntity
  8
FORMAT
 62
     0
100
AcDbLine
 10
0.0
 20
0.0
 30
0.0
 11
-2.5
 21
0.0
 31
0.0
  0
LINE
  5
B7
330
B2
100
AcDbEntity
  8
FORMAT
 62
     0
100
AcDbLine
 10
0.0
 20
0.0
 30
0.0
 11
0.0
 21
-2.5
 31
0.0
  0
LINE
  5
B8
330
B2
100
AcDbEntity
  8
FORMAT
 62
     0
100
AcDbLine
 10
0.0
 20
0.0
 30
0.0
 11
2.5
 21
0.0
 31
0.0
  0
LINE
  5
B9
330
B2
100
AcDbEntity
  8
FORMAT
 62
     0
100
AcDbLine
 10
0.0
 20
5.0
 30
0.0
 11
0.0
 21
27.5
 31
0.0
  0
LINE
  5
BA
330
B2
100
AcDbEntity
  8
FORMAT
 62
     0
100
AcDbLine
 10
-5.0
 20
0.0
 30
0.0
 11
-27.5
 21
0.0
 31
0.0
  0
LINE
  5
BB
330
B2
100
AcDbEntity
  8
FORMAT
 62
     0
100
AcDbLine
 10
0.0
 20
-5.0
 30
0.0
 11
0.0
 21
-27.5
 31
0.0
  0
LINE
  5
BC
330
B2
100
AcDbEntity
  8
FORMAT
 62
     0
100
AcDbLine
 10
5.0
 20
0.0
 30
0.0
 11
27.5
 21
0.0
 31
0.0
  0
ENDBLK
  5
B4
330
B2
100
AcDbEntity
  8
0
100
AcDbBlockEnd
  0
ENDSEC
  0
SECTION
  2
ENTITIES
  0
LINE
  5
83
330
1F
100
AcDbEntity
  8
0
  6
Continuous
 62
     7
370
    25
100
AcDbLine
 10
155.9460599344
 20
90.0029005303
 30
0.0
 11
242.5275510204
 21
90.0029005303
 31
0.0
  0
LINE
  5
84
330
1F
100
AcDbEntity
  8
0
  6
Continuous
 62
     7
370
    25
100
AcDbLine
 10
242.5275510204
 20
140.0029005303
 30
0.0
 11
155.9485850125
 21
140.0029005303
 31
0.0
  0
CIRCLE
  5
85
330
1F
100
AcDbEntity
  8
0
  6
Continuous
 62
     7
370
    25
100
AcDbCircle
 10
118.5275510204
 20
115.0029005303
 30
0.0
 40
36.8
  0
CIRCLE
  5
86
330
1F
100
AcDbEntity
  8
0
  6
Continuous
 62
     7
370
    25
100
AcDbCircle
 10
118.5275510204
 20
115.0029005303
 30
0.0
 40
45.00000000000001
  0
LINE
  5
87
330
1F
100
AcDbEntity
  8
0
  6
Continuous
 62
     7
370
    25
100
AcDbLine
 10
242.5275510204
 20
140.0029005303
 30
0.0
 11
242.5275510204
 21
90.0029005303
 31
0.0
  0
INSERT
  5
93
330
1F
100
AcDbEntity
  8
FORMAT
100
AcDbBlockReference
  2
SW_CENTERMARKSYMBOL_0
 10
118.5275510204
 20
115.0029005303
 30
0.0
  0
LINE
  5
94
330
1F
100
AcDbEntity
  8
0
  6
Continuous
 62
     7
370
    25
100
AcDbLine
 10
73.5275510204
 20
16.8320887156
 30
0.0
 11
73.5275510204
 21
-273.1679112844
 31
0.0
  0
LINE
  5
95
330
1F
100
AcDbEntity
  8
0
  6
Continuous
 62
     7
370
    25
100
AcDbLine
 10
163.5275510204
 20
-103.1950189927
 30
0.0
 11
163.5275510204
 21
16.8320887156
 31
0.0
  0
LINE
  5
96
330
1F
100
AcDbEntity
  8
0
  6
Continuous
 62
     7
370
    25
100
AcDbLine
 10
163.5275510204
 20
-273.1679112844
 30
0.0
 11
163.5275510204
 21
-153.1679112844
 31
0.0
  0
LINE
  5
97
330
1F
100
AcDbEntity
  8
0
  6
Continuous
 62
     7
370
    25
100
AcDbLine
 10
163.5275510204
 20
-153.1679112844
 30
0.0
 11
242.5275510204
 21
-153.1679112844
 31
0.0
  0
LINE
  5
98
330
1F
100
AcDbEntity
  8
0
  6
Continuous
 62
     7
370
    25
100
AcDbLine
 10
242.5275510204
 20
-103.1679112844
 30
0.0
 11
163.5126078913
 21
-103.1679112844
 31
0.0
  0
SPLINE
  5
99
330
1F
100
AcDbEntity
  8
0
  6
Continuous
 62
     7
370
    25
100
AcDbSpline
210
0.0
220
0.0
230
1.0
 70
     8
 71
     3
 72
    28
 73
    24
 74
     0
 42
0.000000001
 43
0.00000001
 40
0.0
 40
0.0
 40
0.0
 40
0.0
 40
0.0042399156070624
 40
0.0505372334098035
 40
0.0981961799969756
 40
0.1444538275857995
 40
0.1918223874554036
 40
0.2428849798774466
 40
0.2951724787752603
 40
0.351137551578587
 40
0.4089133944614848
 40
0.4532503601137072
 40
0.4988405291975812
 40
0.5431983802275646
 40
0.5888635280288804
 40
0.633271537773546
 40
0.678661847274955
 40
0.7297515897314353
 40
0.7820538438658555
 40
0.8382057842897565
 40
0.8962144024954068
 40
0.9472118062681194
 40
0.9999999999999999
 40
0.9999999999999999
 40
0.9999999999999999
 40
0.9999999999999999
 10
163.5125524827477
 20
-103.1950189927009
 30
0.0
 10
163.5175145377698
 20
-103.1860496115612
 30
0.0
 10
163.5766592368828
 20
-103.0791400052848
 30
0.0
 10
163.3689272558367
 20
-103.4529521067049
 30
0.0
 10
162.9154106035481
 20
-104.2812523193504
 30
0.0
 10
162.1630697670084
 20
-105.7021647589203
 30
0.0
 10
161.2038739414915
 20
-107.6140805389441
 30
0.0
 10
160.0639495733712
 20
-110.0761830173456
 30
0.0
 10
158.8120371623314
 20
-113.1347904770027
 30
0.0
 10
157.5814904375467
 20
-116.768182935529
 30
0.0
 10
156.6345356155719
 20
-120.615326846063
 30
0.0
 10
156.072820099995
 20
-124.4458278238167
 30
0.0
 10
155.8854672653
 20
-128.0400369396748
 30
0.0
 10
156.0513036222802
 20
-131.6719736382992
 30
0.0
 10
156.5438802896835
 20
-135.1699379002209
 30
0.0
 10
157.3046853009243
 20
-138.5041608799069
 30
0.0
 10
158.2847817132674
 20
-141.717186989461
 30
0.0
 10
159.4348323024891
 20
-144.7775328246016
 30
0.0
 10
160.6793179773703
 20
-147.6263977689627
 30
0.0
 10
161.8707641545877
 20
-150.0723549055756
 30
0.0
 10
162.8030460854557
 20
-151.8488103605087
 30
0.0
 10
163.4123988237847
 20
-152.9616891459576
 30
0.0
 10
163.4887279427013
 20
-153.0983843597066
 30
0.0
 10
163.527551020408
 20
-153.1679112844351
 30
0.0
  0
LINE
  5
9A
330
1F
100
AcDbEntity
  8
0
  6
Continuous
 62
     7
370
    25
100
AcDbLine
 10
163.5275510204
 20
-273.1679112844
 30
0.0
 11
73.5275510204
 21
-273.1679112844
 31
0.0
  0
LINE
  5
9B
330
1F
100
AcDbEntity
  8
0
  6
Continuous
 62
     7
370
    25
100
AcDbLine
 10
163.5275510204
 20
16.8320887156
 30
0.0
 11
73.5275510204
 21
16.8320887156
 31
0.0
  0
LINE
  5
9C
330
1F
100
AcDbEntity
  8
0
  6
Continuous
 62
     7
370
    25
100
AcDbLine
 10
242.5275510204
 20
-103.1679112844
 30
0.0
 11
242.5275510204
 21
-153.1679112844
 31
0.0
  0
LINE
  5
9D
330
1F
100
AcDbEntity
  8
0
  6
Continuous
 62
     7
370
    25
100
AcDbLine
 10
163.5275510204
 20
379.0708542347
 30
0.0
 11
163.5275510204
 21
499.0708542347
 31
0.0
  0
LINE
  5
9E
330
1F
100
AcDbEntity
  8
0
  6
Continuous
 62
     7
370
    25
100
AcDbLine
 10
163.5275510204
 20
209.0708542347
 30
0.0
 11
163.5275510204
 21
329.097961943
 31
0.0
  0
LINE
  5
9F
330
1F
100
AcDbEntity
  8
0
  6
Continuous
 62
     7
370
    25
100
AcDbLine
 10
73.5275510204
 20
499.0708542347
 30
0.0
 11
73.5275510204
 21
209.0708542347
 31
0.0
  0
LINE
  5
A0
330
1F
100
AcDbEntity
  8
0
  6
Continuous
 62
     7
370
    25
100
AcDbLine
 10
163.5126078913
 20
329.0708542347
 30
0.0
 11
242.5275510204
 21
329.0708542347
 31
0.0
  0
LINE
  5
A1
330
1F
100
AcDbEntity
  8
0
  6
Continuous
 62
     7
370
    25
100
AcDbLine
 10
242.5275510204
 20
379.0708542347
 30
0.0
 11
163.5275510204
 21
379.0708542347
 31
0.0
  0
SPLINE
  5
A2
330
1F
100
AcDbEntity
  8
0
  6
Continuous
 62
     7
370
    25
100
AcDbSpline
210
0.0
220
0.0
230
1.0
 70
     8
 71
     3
 72
    28
 73
    24
 74
     0
 42
0.000000001
 43
0.00000001
 40
0.0
 40
0.0
 40
0.0
 40
0.0
 40
0.0477100588654589
 40
0.0969199826455127
 40
0.1446032146277943
 40
0.1935066830829362
 40
0.2445788684520596
 40
0.2968745571367848
 40
0.3528720804415964
 40
0.3816838974245851
 40
0.4107606895830088
 40
0.4550300694306255
 40
0.5005525863422132
 40
0.5448417107658252
 40
0.5904278873673396
 40
0.6349081456739212
 40
0.6803700030208863
 40
0.7315950340506615
 40
0.7840414135489081
 40
0.8402023215823231
 40
0.898230108619399
 40
0.950276336830245
 40
1.0
 40
1.0
 40
1.0
 40
1.0
 10
163.527551020408
 20
379.0708542346909
 30
0.0
 10
163.4958187493306
 20
379.0139631247937
 30
0.0
 10
163.4313566372466
 20
378.8983924146533
 30
0.0
 10
162.9249225693231
 20
377.9759974097011
 30
0.0
 10
162.1641396864529
 20
376.5392178884063
 30
0.0
 10
161.1775000872249
 20
374.571597191104
 30
0.0
 10
160.0236687381924
 20
372.0704659493218
 30
0.0
 10
158.7715004461057
 20
368.9965319642607
 30
0.0
 10
157.7589351156069
 20
365.9827860947001
 30
0.0
 10
157.042354018667
 20
363.2788546204742
 30
0.0
 10
156.5011973544058
 20
360.7429006002075
 30
0.0
 10
156.0592032431013
 20
357.6537150630422
 30
0.0
 10
155.8854487110564
 20
354.0630821985536
 30
0.0
 10
156.0638087795346
 20
350.4388026913412
 30
0.0
 10
156.5665495621588
 20
346.9481408229851
 30
0.0
 10
157.3355528827715
 20
343.619983538094
 30
0.0
 10
158.3228785187576
 20
340.410701160732
 30
0.0
 10
159.4779137824941
 20
337.3559106239221
 30
0.0
 10
160.7229222595208
 20
334.5187154347068
 30
0.0
 10
161.9096867438371
 20
332.0901283497536
 30
0.0
 10
162.835979224274
 20
330.328571691945
 30
0.0
 10
163.4262588141952
 20
329.2523244615683
 30
0.0
 10
163.4842289192699
 20
329.1486272660079
 30
0.0
 10
163.5125524827477
 20
329.0979619429567
 30
0.0
  0
LINE
  5
A3
330
1F
100
AcDbEntity
  8
0
  6
Continuous
 62
     7
370
    25
100
AcDbLine
 10
73.5275510204
 20
499.0708542347
 30
0.0
 11
163.5275510204
 21
499.0708542347
 31
0.0
  0
LINE
  5
A4
330
1F
100
AcDbEntity
  8
0
  6
Continuous
 62
     7
370
    25
100
AcDbLine
 10
73.5275510204
 20
209.0708542347
 30
0.0
 11
163.5275510204
 21
209.0708542347
 31
0.0
  0
LINE
  5
A5
330
1F
100
AcDbEntity
  8
0
  6
Continuous
 62
     7
370
    25
100
AcDbLine
 10
242.5275510204
 20
379.0708542347
 30
0.0
 11
242.5275510204
 21
329.0708542347
 31
0.0
  0
LINE
  5
A6
330
1F
100
AcDbEntity
  8
0
  6
Continuous
 62
     7
370
    25
100
AcDbLine
 10
271.3093038637
 20
70.0029005303
 30
0.0
 11
561.3093038637
 21
70.0029005303
 31
0.0
  0
LINE
  5
A7
330
1F
100
AcDbEntity
  8
0
  6
Continuous
 62
     7
370
    25
100
AcDbLine
 10
561.3093038637
 20
160.0029005303
 30
0.0
 11
271.3093038637
 21
160.0029005303
 31
0.0
  0
LINE
  5
A8
330
1F
100
AcDbEntity
  8
0
  6
Continuous
 62
     7
370
    25
100
AcDbLine
 10
561.3093038637
 20
160.0029005303
 30
0.0
 11
561.3093038637
 21
70.0029005303
 31
0.0
  0
LINE
  5
A9
330
1F
100
AcDbEntity
  8
0
  6
Continuous
 62
     7
370
    25
100
AcDbLine
 10
271.3093038637
 20
160.0029005303
 30
0.0
 11
271.3093038637
 21
70.0029005303
 31
0.0
  0
LINE
  5
AA
330
1F
100
AcDbEntity
  8
0
  6
Continuous
 62
     7
370
    25
100
AcDbLine
 10
20.4349481214
 20
160.0029005303
 30
0.0
 11
-269.5650518786
 21
160.0029005303
 31
0.0
  0
LINE
  5
AB
330
1F
100
AcDbEntity
  8
0
  6
Continuous
 62
     7
370
    25
100
AcDbLine
 10
-269.5650518786
 20
70.0029005303
 30
0.0
 11
20.4349481214
 21
70.0029005303
 31
0.0
  0
CIRCLE
  5
AC
330
1F
100
AcDbEntity
  8
0
  6
Continuous
 62
     7
370
    25
100
AcDbCircle
 10
-124.5650518786
 20
115.0029005303
 30
0.0
 40
20.39999999999999
  0
CIRCLE
  5
AD
330
1F
100
AcDbEntity
  8
0
  6
Continuous
 62
     7
370
    25
100
AcDbCircle
 10
-124.5650518786
 20
115.0029005303
 30
0.0
 40
24.99999999999999
  0
LINE
  5
AE
330
1F
100
AcDbEntity
  8
0
  6
Continuous
 62
     7
370
    25
100
AcDbLine
 10
-269.5650518786
 20
115.0029005303
 30
0.0
 11
-269.5650518786
 21
160.0029005303
 31
0.0
  0
LINE
  5
AF
330
1F
100
AcDbEntity
  8
0
  6
Continuous
 62
     7
370
    25
100
AcDbLine
 10
-269.5650518786
 20
70.0029005303
 30
0.0
 11
-269.5650518786
 21
115.0029005303
 31
0.0
  0
LINE
  5
B0
330
1F
100
AcDbEntity
  8
0
  6
Continuous
 62
     7
370
    25
100
AcDbLine
 10
20.4349481214
 20
115.0029005303
 30
0.0
 11
20.4349481214
 21
160.0029005303
 31
0.0
  0
LINE
  5
B1
330
1F
100
AcDbEntity
  8
0
  6
Continuous
 62
     7
370
    25
100
AcDbLine
 10
20.4349481214
 20
70.0029005303
 30
0.0
 11
20.4349481214
 21
115.0029005303
 31
0.0
  0
INSERT
  5
BD
330
1F
100
AcDbEntity
  8
FORMAT
100
AcDbBlockReference
  2
SW_CENTERMARKSYMBOL_1
 10
-124.5650518786
 20
115.0029005303
 30
0.0
  0
LINE
  5
BE
330
1F
100
AcDbEntity
  8
0
  6
Continuous
 62
     7
370
    25
100
AcDbLine
 10
553.6687771543
 20
-158.5412060024
 30
0.0
 11
498.6458115757
 21
-126.7771240914
 31
0.0
  0
LINE
  5
BF
330
1F
100
AcDbEntity
  8
0
  6
Continuous
 62
     7
370
    25
100
AcDbLine
 10
448.6417478773
 20
-97.910392564
 30
0.0
 11
348.6078106102
 21
-40.1620297881
 31
0.0
  0
LINE
  5
C0
330
1F
100
AcDbEntity
  8
0
  6
Continuous
 62
     7
370
    25
100
AcDbLine
 10
303.6114676416
 20
-118.1064274024
 30
0.0
 11
508.6724341857
 21
-236.4856036167
 31
0.0
  0
LINE
  5
C1
330
1F
100
AcDbEntity
  8
0
  6
Continuous
 62
     7
370
    25
100
AcDbLine
 10
470.3964737808
 20
-143.085119675
 30
0.0
 11
528.820347423
 21
-109.3577353289
 31
0.0
  0
LINE
  5
C2
330
1F
100
AcDbEntity
  8
0
  6
Continuous
 62
     7
370
    25
100
AcDbLine
 10
503.8223791071
 20
-66.0552922099
 30
0.0
 11
445.3986574573
 21
-99.7825888126
 31
0.0
  0
SPLINE
  5
C3
330
1F
100
AcDbEntity
  8
0
  6
Continuous
 62
     7
370
    25
100
AcDbSpline
210
0.0
220
0.0
230
1.0
 70
     8
 71
     3
 72
    24
 73
    20
 74
     0
 42
0.000000001
 43
0.00000001
 40
0.0
 40
0.0
 40
0.0
 40
0.0
 40
0.0635751633483473
 40
0.129148944162557
 40
0.1926883598400634
 40
0.2578537792352442
 40
0.3259090825530483
 40
0.3955947427598678
 40
0.4702132147522318
 40
0.5086058727076869
 40
0.5473516184702446
 40
0.6063419681379926
 40
0.667002162602296
 40
0.7260188225424267
 40
0.7867638455582354
 40
0.8460351974463568
 40
0.9066145611210693
 40
0.9748735361188942
 40
1.0
 40
1.0
 40
1.0
 40
1.0
 10
442.7822580216533
 20
-109.749532788624
 30
0.0
 10
442.8000480071537
 20
-110.8287771653409
 30
0.0
 10
442.8361872433434
 20
-113.0211942100703
 30
0.0
 10
443.1303160431791
 20
-116.6686323848959
 30
0.0
 10
443.6083178481961
 20
-120.4702114623088
 30
0.0
 10
444.3019762428593
 20
-124.3698644823683
 30
0.0
 10
445.254661101751
 20
-128.3278081750773
 30
0.0
 10
446.5428441014495
 20
-132.2972620809603
 30
0.0
 10
447.9578920148231
 20
-135.463912121973
 30
0.0
 10
449.3631618278025
 20
-137.8516919192776
 30
0.0
 10
450.7736933291807
 20
-139.8205142012305
 30
0.0
 10
452.6455591266155
 20
-141.8147388620363
 30
0.0
 10
455.061580343339
 20
-143.5619399744015
 30
0.0
 10
457.7507343615208
 20
-144.7526115738843
 30
0.0
 10
460.5734304467472
 20
-145.341943747322
 30
0.0
 10
463.4744985434489
 20
-145.3712021320182
 30
0.0
 10
466.4263822203362
 20
-144.8231665730718
 30
0.0
 10
468.7839406071589
 20
-144.0386622766385
 30
0.0
 10
470.0244030637529
 20
-143.2365392839949
 30
0.0
 10
470.3581642527097
 20
-143.0207185452928
 30
0.0
  0
SPLINE
  5
C4
330
1F
100
AcDbEntity
  8
0
  6
Continuous
 62
     7
370
    25
100
AcDbSpline
210
0.0
220
0.0
230
1.0
 70
     8
 71
     3
 72
    12
 73
     8
 74
     0
 42
0.000000001
 43
0.00000001
 40
0.0
 40
0.0
 40
0.0
 40
0.0
 40
0.1267212060822666
 40
0.3517139275842832
 40
0.5841460890043966
 40
0.7884853260412685
 40
1.0
 40
1.0
 40
1.0
 40
1.0
 10
445.4379735272057
 20
-99.84919047631796
 30
0.0
 10
445.2026992238274
 20
-99.97672632845281
 30
0.0
 10
444.5496968427809
 20
-100.3307013011423
 30
0.0
 10
443.8087881530733
 20
-101.6423535148222
 30
0.0
 10
443.2005573814118
 20
-103.7469938854985
 30
0.0
 10
442.8471819492765
 20
-106.4575684002351
 30
0.0
 10
442.8041468501868
 20
-108.6396608712335
 30
0.0
 10
442.7822580216533
 20
-109.749532788624
 30
0.0
  0
LWPOLYLINE
  5
C5
330
1F
100
AcDbEntity
  8
0
  6
Continuous
 62
     7
370
    25
100
AcDbPolyline
 90
       87
 70
   128
 43
0.0
 10
357.9294442793
 20
-60.7650460793
 10
357.8445580652
 20
-58.1318854402
 10
357.5903523278
 20
-55.610781389
 10
357.1681833646
 20
-53.2151851066
 10
356.5803036297
 20
-50.9578781356
 10
355.8298497159
 20
-48.8509041856
 10
354.9208256194
 20
-46.905504874
 10
353.8580813771
 20
-45.132059748
 10
352.6472871895
 20
-43.5400309046
 10
351.2949031673
 20
-42.1379125065
 10
349.8081448644
 20
-40.933185462
 10
348.1949447798
 20
-39.9322775112
 10
346.4639100338
 20
-39.1405289311
 10
344.6242764457
 20
-38.5621640429
 10
342.6858592567
 20
-38.2002686735
 10
340.6590007613
 20
-38.0567736913
 10
338.5545151264
 20
-38.1324447041
 10
336.3836306935
 20
-38.4268779743
 10
334.1579300704
 20
-38.9385025731
 10
331.8892883327
 20
-39.6645887617
 10
329.5898096658
 20
-40.6012625564
 10
327.2717627834
 20
-41.743526397
 10
324.9475154684
 20
-43.0852858118
 10
322.6294685859
 20
-44.6193819338
 10
320.329989919
 20
-46.3376296963
 10
318.0613481814
 20
-48.2308615042
 10
315.8356475582
 20
-50.2889761465
 10
313.6647631253
 20
-52.5009926912
 10
311.5602774904
 20
-54.8551090729
 10
309.533418995
 20
-57.3387650622
 10
307.5950018061
 20
-59.9387092798
 10
305.755368218
 20
-62.6410698983
 10
304.024333472
 20
-65.4314286546
 10
302.4111333873
 20
-68.2948977773
 10
300.9243750845
 20
-71.2161994199
 10
299.5719910623
 20
-74.1797471741
 10
298.3611968746
 20
-77.1697292303
 10
297.2984526324
 20
-80.1701927406
 10
296.3894285359
 20
-83.165128934
 10
295.638974622
 20
-86.13855853
 10
295.0510948871
 20
-89.0746169952
 10
294.6289259239
 20
-91.9576391873
 10
294.3747201865
 20
-94.7722429356
 10
294.2898339725
 20
-97.5034111113
 10
294.3747201865
 20
-100.1365717504
 10
294.6289259239
 20
-102.6576758016
 10
295.0510948871
 20
-105.053272084
 10
295.638974622
 20
-107.3105790549
 10
296.3894285359
 20
-109.417553005
 10
297.2984526324
 20
-111.3629523166
 10
298.3611968746
 20
-113.1363974426
 10
299.5719910623
 20
-114.728426286
 10
300.9243750845
 20
-116.1305446841
 10
302.4111333873
 20
-117.3352717285
 10
304.024333472
 20
-118.3361796793
 10
305.755368218
 20
-119.1279282594
 10
307.5950018061
 20
-119.7062931477
 10
309.533418995
 20
-120.0681885171
 10
311.5602774904
 20
-120.2116834993
 10
313.6647631253
 20
-120.1360124865
 10
315.8356475582
 20
-119.8415792162
 10
318.0613481814
 20
-119.3299546175
 10
320.329989919
 20
-118.6038684288
 10
322.6294685859
 20
-117.6671946342
 10
324.9475154684
 20
-116.5249307935
 10
327.2717627834
 20
-115.1831713787
 10
329.5898096658
 20
-113.6490752568
 10
331.8892883327
 20
-111.9308274942
 10
334.1579300704
 20
-110.0375956864
 10
336.3836306935
 20
-107.9794810441
 10
338.5545151264
 20
-105.7674644994
 10
340.6590007613
 20
-103.4133481176
 10
342.6858592567
 20
-100.9296921283
 10
344.6242764457
 20
-98.3297479108
 10
346.4639100338
 20
-95.6273872923
 10
348.1949447798
 20
-92.837028536
 10
349.8081448644
 20
-89.9735594132
 10
351.2949031673
 20
-87.0522577706
 10
352.6472871895
 20
-84.0887100164
 10
353.8580813771
 20
-81.0987279602
 10
354.9208256194
 20
-78.0982644499
 10
355.8298497159
 20
-75.1033282566
 10
356.5803036297
 20
-72.1298986606
 10
357.1681833646
 20
-69.1938401954
 10
357.5903523278
 20
-66.3108180032
 10
357.8445580652
 20
-63.4962142549
 10
357.9294442793
 20
-60.7650460793
  0
LWPOLYLINE
  5
C6
330
1F
100
AcDbEntity
  8
0
  6
Continuous
 62
     7
370
    25
100
AcDbPolyline
 90
       12
 70
   128
 43
0.0
 10
562.9904108234
 20
-179.1442222936
 10
562.9055246093
 20
-176.5110616545
 10
562.6513188719
 20
-173.9899576033
 10
562.2291499087
 20
-171.5943613209
 10
561.6412701738
 20
-169.3370543499
 10
560.89081626
 20
-167.2300803999
 10
559.9817921635
 20
-165.2846810883
 10
558.9190479212
 20
-163.5112359623
 10
557.7082537336
 20
-161.9192071188
 10
556.3558697114
 20
-160.5170887208
 10
554.8691114085
 20
-159.3123616763
 10
553.6687771543
 20
-158.5412060024
  0
LWPOLYLINE
  5
C7
330
1F
100
AcDbEntity
  8
0
  6
Continuous
 62
     7
370
    25
100
AcDbPolyline
 90
       34
 70
   128
 43
0.0
 10
508.6724341857
 20
-236.4856036167
 10
509.0853000161
 20
-236.7153558936
 10
510.8163347621
 20
-237.5071044737
 10
512.6559683502
 20
-238.085469362
 10
514.5943855391
 20
-238.4473647314
 10
516.6212440345
 20
-238.5908597136
 10
518.7257296694
 20
-238.5151887008
 10
520.8966141023
 20
-238.2207554305
 10
523.1223147255
 20
-237.7091308318
 10
525.3909564631
 20
-236.9830446431
 10
527.69043513
 20
-236.0463708484
 10
530.0084820125
 20
-234.9041070078
 10
532.3327293275
 20
-233.562347593
 10
534.6507762099
 20
-232.0282514711
 10
536.9502548768
 20
-230.3100037085
 10
539.2188966145
 20
-228.4167719007
 10
541.4445972376
 20
-226.3586572584
 10
543.6154816705
 20
-224.1466407136
 10
545.7199673054
 20
-221.7925243319
 10
547.7468258008
 20
-219.3088683426
 10
549.6852429898
 20
-216.708924125
 10
551.5248765779
 20
-214.0065635066
 10
553.2559113239
 20
-211.2162047503
 10
554.8691114085
 20
-208.3527356275
 10
556.3558697114
 20
-205.4314339849
 10
557.7082537336
 20
-202.4678862307
 10
558.9190479212
 20
-199.4779041745
 10
559.9817921635
 20
-196.4774406642
 10
560.89081626
 20
-193.4825044709
 10
561.6412701738
 20
-190.5090748749
 10
562.2291499087
 20
-187.5730164097
 10
562.6513188719
 20
-184.6899942175
 10
562.9055246093
 20
-181.8753904692
 10
562.9904108234
 20
-179.1442222936
  0
LWPOLYLINE
  5
C8
330
1F
100
AcDbEntity
  8
0
  6
Continuous
 62
     7
370
    25
100
AcDbPolyline
 90
       79
 70
   128
 43
0.0
 10
352.1311686735
 20
-64.1123193377
 10
352.0467888713
 20
-61.7431148262
 10
351.7941967001
 20
-59.486698361
 10
351.3750303171
 20
-57.3577036688
 10
350.792008177
 20
-55.369938097
 10
350.0489114023
 20
-53.5362930683
 10
349.1505592606
 20
-51.8686604741
 10
348.1027779102
 20
-50.3778555519
 10
346.9123626154
 20
-49.0735467436
 10
345.5870336762
 20
-47.9641929923
 10
344.1353863591
 20
-47.0569888829
 10
342.5668351542
 20
-46.357817982
 10
340.8915527179
 20
-45.8712146813
 10
339.1204038997
 20
-45.6003347899
 10
337.2648752793
 20
-45.5469350679
 10
335.3370006718
 20
-45.7113618329
 10
333.3492830839
 20
-46.0925487142
 10
331.3146136268
 20
-46.6880235687
 10
329.2461879127
 20
-47.4939245135
 10
327.1574204762
 20
-48.5050249715
 10
325.0618577756
 20
-49.7147675685
 10
322.973090339
 20
-51.1153066595
 10
320.904664625
 20
-52.6975592109
 10
318.8699951679
 20
-54.4512637078
 10
316.8822775799
 20
-56.3650467037
 10
314.9544029725
 20
-58.4264965814
 10
313.098874352
 20
-60.6222440475
 10
311.3277255338
 20
-62.9380488369
 10
309.6524430975
 20
-65.3588920671
 10
308.0838918926
 20
-67.8690736407
 10
306.6322445756
 20
-70.452314067
 10
305.3069156363
 20
-73.0918600405
 10
304.1165003415
 20
-75.7705930927
 10
303.0687189912
 20
-78.4711406119
 10
302.1703668495
 20
-81.1759885111
 10
301.4272700747
 20
-83.8675948138
 10
300.8442479347
 20
-86.5285034202
 10
300.4250815516
 20
-89.141457317
 10
300.1724893804
 20
-91.6895104954
 10
300.0881095782
 20
-94.1561378528
 10
300.1724893804
 20
-96.5253423643
 10
300.4250815516
 20
-98.7817588295
 10
300.8442479347
 20
-100.9107535218
 10
301.4272700747
 20
-102.8985190935
 10
302.1703668495
 20
-104.7321641223
 10
303.0687189912
 20
-106.3997967164
 10
304.1165003415
 20
-107.8906016387
 10
305.3069156363
 20
-109.194910447
 10
306.6322445756
 20
-110.3042641982
 10
308.0838918926
 20
-111.2114683077
 10
309.6524430975
 20
-111.9106392085
 10
311.3277255338
 20
-112.3972425092
 10
313.098874352
 20
-112.6681224006
 10
314.9544029725
 20
-112.7215221227
 10
316.8822775799
 20
-112.5570953577
 10
318.8699951679
 20
-112.1759084763
 10
320.904664625
 20
-111.5804336218
 10
322.973090339
 20
-110.7745326771
 10
325.0618577756
 20
-109.763432219
 10
327.1574204762
 20
-108.553689622
 10
329.2461879127
 20
-107.1531505311
 10
331.3146136268
 20
-105.5708979797
 10
333.3492830839
 20
-103.8171934827
 10
335.3370006718
 20
-101.9034104868
 10
337.2648752793
 20
-99.8419606091
 10
339.1204038997
 20
-97.6462131431
 10
340.8915527179
 20
-95.3304083536
 10
342.5668351542
 20
-92.9095651234
 10
344.1353863591
 20
-90.3993835498
 10
345.5870336762
 20
-87.8161431236
 10
346.9123626154
 20
-85.1765971501
 10
348.1027779102
 20
-82.4978640978
 10
349.1505592606
 20
-79.7973165786
 10
350.0489114023
 20
-77.0924686794
 10
350.792008177
 20
-74.4008623767
 10
351.3750303171
 20
-71.7399537703
 10
351.7941967001
 20
-69.1269998736
 10
352.0467888713
 20
-66.5789466952
 10
352.1311686735
 20
-64.1123193377
  0
LWPOLYLINE
  5
C9
330
1F
100
AcDbEntity
  8
0
  6
Continuous
 62
     7
370
    25
100
AcDbPolyline
 90
       59
 70
   128
 43
0.0
 10
530.7463416013
 20
-96.03387651
 10
530.6617817602
 20
-94.1840758947
 10
530.4090936239
 20
-92.258331786
 10
529.9912397296
 20
-90.2792217728
 10
529.4131190323
 20
-88.2699491105
 10
528.6815094685
 20
-86.254070684
 10
527.8049884915
 20
-84.2552208247
 10
526.7938325082
 20
-82.2968342196
 10
525.6598963982
 20
-80.4018711611
 10
524.4164745255
 20
-78.5925483585
 10
523.0781448746
 20
-76.8900784674
 10
521.6605981372
 20
-75.3144213906
 10
520.1804537527
 20
-73.8840502668
 10
518.6550650605
 20
-72.6157348895
 10
517.1023158485
 20
-71.524345097
 10
515.5404106816
 20
-70.6226764366
 10
513.9876614696
 20
-69.9213001491
 10
512.4622727774
 20
-69.4284392301
 10
510.9821283929
 20
-69.1498720233
 10
509.5645816555
 20
-69.0888644745
 10
508.2262520046
 20
-69.2461318413
 10
506.9828301319
 20
-69.6198303078
 10
505.8488940219
 20
-70.205578601
 10
504.8377380386
 20
-70.9965093579
 10
503.9612170616
 20
-71.9833496383
 10
503.2296074978
 20
-73.1545296424
 10
502.6514868005
 20
-74.4963183554
 10
502.2336329062
 20
-75.9929845314
 10
501.9809447699
 20
-77.6269811279
 10
501.8963849288
 20
-79.3791510288
 10
501.9809447699
 20
-81.2289516441
 10
502.2336329062
 20
-83.1546957528
 10
502.6514868005
 20
-85.133805766
 10
503.2296074978
 20
-87.1430784283
 10
503.9612170616
 20
-89.1589568548
 10
504.8377380386
 20
-91.1578067141
 10
505.8488940219
 20
-93.1161933192
 10
506.9828301319
 20
-95.0111563777
 10
508.2262520046
 20
-96.8204791803
 10
509.5645816555
 20
-98.5229490714
 10
510.9821283929
 20
-100.0986061482
 10
512.4622727774
 20
-101.528977272
 10
513.9876614696
 20
-102.7972926493
 10
515.5404106816
 20
-103.8886824418
 10
517.1023158485
 20
-104.7903511022
 10
518.6550650605
 20
-105.4917273897
 10
520.1804537527
 20
-105.9845883087
 10
521.6605981372
 20
-106.2631555155
 10
523.0781448746
 20
-106.3241630644
 10
524.4164745255
 20
-106.1668956975
 10
525.6598963982
 20
-105.793197231
 10
526.7938325082
 20
-105.2074489378
 10
527.8049884915
 20
-104.4165181809
 10
528.6815094685
 20
-103.4296779005
 10
529.4131190323
 20
-102.2584978964
 10
529.9912397296
 20
-100.9167091835
 10
530.4090936239
 20
-99.4200430075
 10
530.6617817602
 20
-97.7860464109
 10
530.7463416013
 20
-96.03387651
  0
LWPOLYLINE
  5
CA
330
1F
100
AcDbEntity
  8
0
  6
Continuous
 62
     7
370
    25
100
AcDbPolyline
 90
       65
 70
   128
 43
0.0
 10
533.9990327947
 20
-97.9116151672
 10
533.9139099841
 20
-95.861599931
 10
533.6593613316
 20
-93.7330467571
 10
533.2378382797
 20
-91.5464547761
 10
532.653400326
 20
-89.3228820641
 10
531.9116759274
 20
-87.0837428417
 10
531.0198082953
 20
-84.8506012439
 10
529.9863866026
 20
-82.6449636449
 10
528.8213632651
 20
-80.4880715405
 10
527.5359580943
 20
-78.4006969807
 10
526.1425502449
 20
-76.4029425238
 10
524.654558996
 20
-74.514047637
 10
523.0863145169
 20
-72.7522034109
 10
521.4529198591
 20
-71.1343773684
 10
519.7701055061
 20
-69.6761500587
 10
518.05407788
 20
-68.3915650079
 10
516.3213632651
 20
-67.2929934723
 10
514.5886486501
 20
-66.3910152963
 10
512.872621024
 20
-65.6943170229
 10
511.189806671
 20
-65.2096082372
 10
509.5564120132
 20
-64.9415569498
 10
507.9881675341
 20
-64.8927446413
 10
506.5001762852
 20
-65.0636414007
 10
505.1067684358
 20
-65.4526013988
 10
503.8213632651
 20
-66.0558787383
 10
502.6563399275
 20
-66.8676635287
 10
501.6229182348
 20
-67.8801378385
 10
500.7310506027
 20
-69.0835509867
 10
499.9893262041
 20
-70.4663134468
 10
499.4048882504
 20
-72.0151084606
 10
498.9833651985
 20
-73.7150202852
 10
498.728816546
 20
-75.5496778406
 10
498.6436937354
 20
-77.5014123716
 10
498.728816546
 20
-79.5514276078
 10
498.9833651985
 20
-81.6799807817
 10
499.4048882504
 20
-83.8665727627
 10
499.9893262041
 20
-86.0901454748
 10
500.7310506027
 20
-88.3292846971
 10
501.6229182348
 20
-90.5624262949
 10
502.6563399275
 20
-92.7680638939
 10
503.8213632651
 20
-94.9249559983
 10
505.1067684358
 20
-97.0123305581
 10
506.5001762852
 20
-99.0100850151
 10
507.9881675341
 20
-100.8989799018
 10
509.5564120132
 20
-102.6608241279
 10
511.189806671
 20
-104.2786501704
 10
512.872621024
 20
-105.7368774802
 10
514.5886486501
 20
-107.021462531
 10
516.3213632651
 20
-108.1200340666
 10
518.05407788
 20
-109.0220122425
 10
519.7701055061
 20
-109.718710516
 10
521.4529198591
 20
-110.2034193016
 10
523.0863145169
 20
-110.471470589
 10
524.654558996
 20
-110.5202828976
 10
526.1425502449
 20
-110.3493861382
 10
527.5359580943
 20
-109.96042614
 10
528.8213632651
 20
-109.3571488005
 10
529.9863866026
 20
-108.5453640102
 10
531.0198082953
 20
-107.5328897004
 10
531.9116759274
 20
-106.3294765522
 10
532.653400326
 20
-104.946714092
 10
533.2378382797
 20
-103.3979190783
 10
533.6593613316
 20
-101.6980072536
 10
533.9139099841
 20
-99.8633496982
 10
533.9990327947
 20
-97.9116151672
  0
ENDSEC
  0
SECTION
  2
OBJECTS
  0
DICTIONARY
  5
C
330
0
100
AcDbDictionary
281
     1
  3
ACAD_GROUP
350
D
  3
ACAD_LAYOUT
350
1A
  3
ACAD_MLINESTYLE
350
17
  3
ACAD_PLOTSETTINGS
350
19
  3
ACAD_PLOTSTYLENAME
350
E
  3
ACAD_SCALELIST
350
47
  0
DICTIONARY
  5
D
102
{ACAD_REACTORS
330
C
102
}
330
C
100
AcDbDictionary
281
     1
  0
DICTIONARY
  5
1A
102
{ACAD_REACTORS
330
C
102
}
330
C
100
AcDbDictionary
281
     1
  3
Layout1
350
1E
  3
Layout2
350
26
  3
Model
350
22
  0
DICTIONARY
  5
17
102
{ACAD_REACTORS
330
C
102
}
330
C
100
AcDbDictionary
281
     1
  3
Standard
350
18
  0
DICTIONARY
  5
19
102
{ACAD_REACTORS
330
C
102
}
330
C
100
AcDbDictionary
281
     1
  0
ACDBDICTIONARYWDFLT
  5
E
102
{ACAD_REACTORS
330
C
102
}
330
C
100
AcDbDictionary
281
     1
  3
Normal
350
F
100
AcDbDictionaryWithDefault
340
F
  0
DICTIONARY
  5
47
102
{ACAD_REACTORS
330
C
102
}
330
C
100
AcDbDictionary
281
     1
  3
A0
350
48
  3
A1
350
49
  3
A2
350
4A
  3
A3
350
4B
  3
A4
350
4C
  3
A5
350
4D
  3
A6
350
4E
  3
A7
350
4F
  3
A8
350
50
  3
A9
350
51
  3
B0
350
52
  3
B1
350
53
  3
B2
350
54
  3
B3
350
55
  3
B4
350
56
  3
B5
350
57
  3
B6
350
58
  3
B7
350
59
  3
B8
350
5A
  3
B9
350
5B
  3
C0
350
5C
  3
C1
350
5D
  3
C2
350
5E
  3
C3
350
5F
  3
C4
350
60
  3
C5
350
61
  3
C6
350
62
  3
C7
350
63
  3
C8
350
64
  3
C9
350
65
  3
D0
350
66
  3
D1
350
67
  3
D2
350
68
  0
LAYOUT
  5
1E
102
{ACAD_REACTORS
330
1A
102
}
330
1A
100
AcDbPlotSettings
  1

  2
none_device
  4

  6

 40
0.0
 41
0.0
 42
0.0
 43
0.0
 44
0.0
 45
0.0
 46
0.0
 47
0.0
 48
0.0
 49
0.0
140
0.0
141
0.0
142
1.0
143
1.0
 70
   688
 72
     1
 73
     0
 74
     5
  7

 75
    16
147
1.0
148
0.0
149
0.0
100
AcDbLayout
  1
Layout1
 70
     1
 71
     1
 10
0.0
 20
0.0
 11
420.0
 21
297.0
 12
0.0
 22
0.0
 32
0.0
 14
1.0000000000E+20
 24
1.0000000000E+20
 34
1.0000000000E+20
 15
-1.0000000000E+20
 25
-1.0000000000E+20
 35
-1.0000000000E+20
146
0.0
 13
0.0
 23
0.0
 33
0.0
 16
1.0
 26
0.0
 36
0.0
 17
0.0
 27
1.0
 37
0.0
 76
     0
330
1B
  0
LAYOUT
  5
26
102
{ACAD_REACTORS
330
1A
102
}
330
1A
100
AcDbPlotSettings
  1

  2
none_device
  4

  6

 40
0.0
 41
0.0
 42
0.0
 43
0.0
 44
0.0
 45
0.0
 46
0.0
 47
0.0
 48
0.0
 49
0.0
140
0.0
141
0.0
142
1.0
143
1.0
 70
   688
 72
     1
 73
     0
 74
     5
  7

 75
    16
147
1.0
148
0.0
149
0.0
100
AcDbLayout
  1
Layout2
 70
     1
 71
     2
 10
0.0
 20
0.0
 11
0.0
 21
0.0
 12
0.0
 22
0.0
 32
0.0
 14
0.0
 24
0.0
 34
0.0
 15
0.0
 25
0.0
 35
0.0
146
0.0
 13
0.0
 23
0.0
 33
0.0
 16
1.0
 26
0.0
 36
0.0
 17
0.0
 27
1.0
 37
0.0
 76
     0
330
23
  0
LAYOUT
  5
22
102
{ACAD_REACTORS
330
1A
102
}
330
1A
100
AcDbPlotSettings
  1

  2
none_device
  4
Letter_(8.50_x_11.00_Inches)
  6

 40
6.35
 41
6.35
 42
6.35000508
 43
6.35000508
 44
215.9
 45
279.4
 46
0.0
 47
0.0
 48
0.0
 49
0.0
140
0.0
141
0.0
142
1.0
143
1.0
 70
  1712
 72
     1
 73
     0
 74
     0
  7

 75
     0
147
1.0
148
0.0
149
0.0
100
AcDbLayout
  1
Model
 70
     1
 71
     0
 10
0.0
 20
0.0
 11
279.4
 21
215.9
 12
0.0
 22
0.0
 32
0.0
 14
0.0
 24
0.0
 34
0.0
 15
279.4
 25
215.9
 35
0.0
146
0.0
 13
0.0
 23
0.0
 33
0.0
 16
1.0
 26
0.0
 36
0.0
 17
0.0
 27
1.0
 37
0.0
 76
     0
330
1F
331
29
  0
MLINESTYLE
  5
18
102
{ACAD_REACTORS
330
17
102
}
330
17
100
AcDbMlineStyle
  2
Standard
 70
     0
  3

 62
   256
 51
90.0
 52
90.0
 71
     2
 49
0.5
 62
   256
  6
BYLAYER
 49
-0.5
 62
   256
  6
BYLAYER
  0
ACDBPLACEHOLDER
  5
F
102
{ACAD_REACTORS
330
E
102
}
330
E
  0
SCALE
  5
48
102
{ACAD_REACTORS
330
47
102
}
330
47
100
AcDbScale
 70
     0
300
1:1
140
1.0
141
1.0
290
     1
  0
SCALE
  5
49
102
{ACAD_REACTORS
330
47
102
}
330
47
100
AcDbScale
 70
     0
300
1:2
140
1.0
141
2.0
290
     0
  0
SCALE
  5
4A
102
{ACAD_REACTORS
330
47
102
}
330
47
100
AcDbScale
 70
     0
300
1:4
140
1.0
141
4.0
290
     0
  0
SCALE
  5
4B
102
{ACAD_REACTORS
330
47
102
}
330
47
100
AcDbScale
 70
     0
300
1:5
140
1.0
141
5.0
290
     0
  0
SCALE
  5
4C
102
{ACAD_REACTORS
330
47
102
}
330
47
100
AcDbScale
 70
     0
300
1:8
140
1.0
141
8.0
290
     0
  0
SCALE
  5
4D
102
{ACAD_REACTORS
330
47
102
}
330
47
100
AcDbScale
 70
     0
300
1:10
140
1.0
141
10.0
290
     0
  0
SCALE
  5
4E
102
{ACAD_REACTORS
330
47
102
}
330
47
100
AcDbScale
 70
     0
300
1:16
140
1.0
141
16.0
290
     0
  0
SCALE
  5
4F
102
{ACAD_REACTORS
330
47
102
}
330
47
100
AcDbScale
 70
     0
300
1:20
140
1.0
141
20.0
290
     0
  0
SCALE
  5
50
102
{ACAD_REACTORS
330
47
102
}
330
47
100
AcDbScale
 70
     0
300
1:30
140
1.0
141
30.0
290
     0
  0
SCALE
  5
51
102
{ACAD_REACTORS
330
47
102
}
330
47
100
AcDbScale
 70
     0
300
1:40
140
1.0
141
40.0
290
     0
  0
SCALE
  5
52
102
{ACAD_REACTORS
330
47
102
}
330
47
100
AcDbScale
 70
     0
300
1:50
140
1.0
141
50.0
290
     0
  0
SCALE
  5
53
102
{ACAD_REACTORS
330
47
102
}
330
47
100
AcDbScale
 70
     0
300
1:100
140
1.0
141
100.0
290
     0
  0
SCALE
  5
54
102
{ACAD_REACTORS
330
47
102
}
330
47
100
AcDbScale
 70
     0
300
2:1
140
2.0
141
1.0
290
     0
  0
SCALE
  5
55
102
{ACAD_REACTORS
330
47
102
}
330
47
100
AcDbScale
 70
     0
300
4:1
140
4.0
141
1.0
290
     0
  0
SCALE
  5
56
102
{ACAD_REACTORS
330
47
102
}
330
47
100
AcDbScale
 70
     0
300
8:1
140
8.0
141
1.0
290
     0
  0
SCALE
  5
57
102
{ACAD_REACTORS
330
47
102
}
330
47
100
AcDbScale
 70
     0
300
10:1
140
10.0
141
1.0
290
     0
  0
SCALE
  5
58
102
{ACAD_REACTORS
330
47
102
}
330
47
100
AcDbScale
 70
     0
300
100:1
140
100.0
141
1.0
290
     0
  0
SCALE
  5
59
102
{ACAD_REACTORS
330
47
102
}
330
47
100
AcDbScale
 70
     0
300
1/128" = 1'-0"
140
0.0078125
141
12.0
290
     0
  0
SCALE
  5
5A
102
{ACAD_REACTORS
330
47
102
}
330
47
100
AcDbScale
 70
     0
300
1/64" = 1'-0"
140
0.015625
141
12.0
290
     0
  0
SCALE
  5
5B
102
{ACAD_REACTORS
330
47
102
}
330
47
100
AcDbScale
 70
     0
300
1/32" = 1'-0"
140
0.03125
141
12.0
290
     0
  0
SCALE
  5
5C
102
{ACAD_REACTORS
330
47
102
}
330
47
100
AcDbScale
 70
     0
300
1/16" = 1'-0"
140
0.0625
141
12.0
290
     0
  0
SCALE
  5
5D
102
{ACAD_REACTORS
330
47
102
}
330
47
100
AcDbScale
 70
     0
300
3/32" = 1'-0"
140
0.09375
141
12.0
290
     0
  0
SCALE
  5
5E
102
{ACAD_REACTORS
330
47
102
}
330
47
100
AcDbScale
 70
     0
300
1/8" = 1'-0"
140
0.125
141
12.0
290
     0
  0
SCALE
  5
5F
102
{ACAD_REACTORS
330
47
102
}
330
47
100
AcDbScale
 70
     0
300
3/16" = 1'-0"
140
0.1875
141
12.0
290
     0
  0
SCALE
  5
60
102
{ACAD_REACTORS
330
47
102
}
330
47
100
AcDbScale
 70
     0
300
1/4" = 1'-0"
140
0.25
141
12.0
290
     0
  0
SCALE
  5
61
102
{ACAD_REACTORS
330
47
102
}
330
47
100
AcDbScale
 70
     0
300
3/8" = 1'-0"
140
0.375
141
12.0
290
     0
  0
SCALE
  5
62
102
{ACAD_REACTORS
330
47
102
}
330
47
100
AcDbScale
 70
     0
300
1/2" = 1'-0"
140
0.5
141
12.0
290
     0
  0
SCALE
  5
63
102
{ACAD_REACTORS
330
47
102
}
330
47
100
AcDbScale
 70
     0
300
3/4" = 1'-0"
140
0.75
141
12.0
290
     0
  0
SCALE
  5
64
102
{ACAD_REACTORS
330
47
102
}
330
47
100
AcDbScale
 70
     0
300
1" = 1'-0"
140
1.0
141
12.0
290
     0
  0
SCALE
  5
65
102
{ACAD_REACTORS
330
47
102
}
330
47
100
AcDbScale
 70
     0
300
1-1/2" = 1'-0"
140
1.5
141
12.0
290
     0
  0
SCALE
  5
66
102
{ACAD_REACTORS
330
47
102
}
330
47
100
AcDbScale
 70
     0
300
3" = 1'-0"
140
3.0
141
12.0
290
     0
  0
SCALE
  5
67
102
{ACAD_REACTORS
330
47
102
}
330
47
100
AcDbScale
 70
     0
300
6" = 1'-0"
140
6.0
141
12.0
290
     0
  0
SCALE
  5
68
102
{ACAD_REACTORS
330
47
102
}
330
47
100
AcDbScale
 70
     0
300
1'-0" = 1'-0"
140
12.0
141
12.0
290
     0
  0
ENDSEC
  0
EOF
